"Jezus malusieńki" 
 

 

Strunowanie dla każdego akordu:

 

    a                      E     

E1|-0-----0---------   E1|-----------------
B2|---1------1------   B2|-0--
-----0-------
G3|-----2-------2---   G3|
----1-------1----
D4|-----------------   D4|
-------2------2--
A5|-0---------------   A5|
-2---------------
E6|-----------------   E6|-----------------

    d                      C     

E1|-1-------1-------   E1|-0-------0-------
B2|----3------3-----   B2|---
-1------1-----
G3|------2------2---   G3|
------0------0---
D4|-0---------------   D4|
-----------------
A5|-----------------   A5|
-3---------------
E6|-----------------   E6|-----------------

     G                   

E1|-3-------3-------
B2|----3------3-----
G3|------0------0---
D4|-----------------
A5|-2---------------
E6|-----------------

 

Zwrotka 1  

a         E      a             E

Jezus malusieńki leży wśród stajenki

d              C           G        C
Płacze z zimna nie dała mu matula sukienki

d              C           G        C
Płacze z zimna nie dała mu matula sukienki

 

Zwrotka 2 

a        E     a               E
Bo uboga była, rąbek z głowy zdjęła,

  d             C          G            C
w który Dziecię owinąwszy, siankiem Je okryła

  d             C          G            C
w który Dziecię owinąwszy, siankiem Je okryła

 

Zwrotka 3  

a          E       a       E
Nie ma kolebeczki, ani poduszeczki,

d            C        G            C
We żłobie Mu położyła siana pod główeczki

d            C        G            C      C
We żłobie Mu położyła siana pod główeczki

Pomogłem?  Ty też możesz ;) Wrzuć na piwko :D

Jeżeli czujesz, że moja praca okazała się na tyle pomocna, że chciałbyś\chciałabyś postawić mi

piwko - masz okazję :) 

Będę mógł w końcu zwilżyć gardło przed

nagrywaniem kolejnego odcinka :)

Twoje zdrowie!!

prowadzi Bartek Pawłowski

banner.png
5d725e43c14745281a05f3ba.gif
spotify_splash.png
KOSZULKA.png
promo_card.jpg
1548_600x_edited.png